ISO-10303-21;
HEADER;
FILE_DESCRIPTION (( 'STEP AP203' ),
    '1' );
FILE_NAME ('BK7-BPBSC-12.7-450-650.STEP',
    '2021-01-05T02:10:39',
    ( '' ),
    ( '' ),
    'SwSTEP 2.0',
    'SolidWorks 2020',
    '' );
FILE_SCHEMA (( 'CONFIG_CONTROL_DESIGN' ));
ENDSEC;

DATA;
#1 = CARTESIAN_POINT ( 'NONE',  ( -6.349999999999999645, -6.350000000000000533, -6.349999999999999645 ) ) ;
#2 = DIRECTION ( 'NONE',  ( 1.000000000000000000, 0.000000000000000000, 0.000000000000000000 ) ) ;
#3 = LINE ( 'NONE', #173, #227 ) ;
#4 = PRODUCT ( 'BK7-BPBSC-12.7-450-650', 'BK7-BPBSC-12.7-450-650', '', ( #66 ) ) ;
#5 = CARTESIAN_POINT ( 'NONE',  ( 6.349999999999998757, 6.349999999999998757, 6.349999999999999645 ) ) ;
#6 = LINE ( 'NONE', #306, #21 ) ;
#7 = ORIENTED_EDGE ( 'NONE', *, *, #77, .F. ) ;
#8 = DATE_AND_TIME ( #15, #123 ) ;
#9 = VERTEX_POINT ( 'NONE', #238 ) ;
#10 = COORDINATED_UNIVERSAL_TIME_OFFSET ( 8, 0, .AHEAD. ) ;
#11 = AXIS2_PLACEMENT_3D ( 'NONE', #41, #120, #289 ) ;
#12 = ADVANCED_FACE ( 'NONE', ( #84 ), #29, .F. ) ;
#13 = ORIENTED_EDGE ( 'NONE', *, *, #144, .T. ) ;
#14 = ORGANIZATION ( 'UNSPECIFIED', 'UNSPECIFIED', '' ) ;
#15 = CALENDAR_DATE ( 2021, 5, 1 ) ;
#16 = ORIENTED_EDGE ( 'NONE', *, *, #148, .T. ) ;
#17 = COORDINATED_UNIVERSAL_TIME_OFFSET ( 8, 0, .AHEAD. ) ;
#18 = CARTESIAN_POINT ( 'NONE',  ( 0.000000000000000000, 0.000000000000000000, 6.349999999999999645 ) ) ;
#19 = SECURITY_CLASSIFICATION_LEVEL ( 'unclassified' ) ;
#20 = LINE ( 'NONE', #244, #245 ) ;
#21 = VECTOR ( 'NONE', #198, 1000.000000000000000 ) ;
#22 = DIRECTION ( 'NONE',  ( 0.000000000000000000, 0.000000000000000000, -1.000000000000000000 ) ) ;
#23 = DIRECTION ( 'NONE',  ( 0.000000000000000000, 0.000000000000000000, 1.000000000000000000 ) ) ;
#24 = CARTESIAN_POINT ( 'NONE',  ( -6.350000000000002309, 6.350000000000001421, 6.349999999999999645 ) ) ;
#25 = DIRECTION ( 'NONE',  ( -0.000000000000000000, -0.000000000000000000, -1.000000000000000000 ) ) ;
#26 = EDGE_CURVE ( 'NONE', #186, #63, #304, .T. ) ;
#27 = VECTOR ( 'NONE', #167, 1000.000000000000000 ) ;
#28 = CC_DESIGN_APPROVAL ( #258, ( #305 ) ) ;
#29 = PLANE ( 'NONE',  #107 ) ;
#30 = AXIS2_PLACEMENT_3D ( 'NONE', #243, #162, #264 ) ;
#31 = FACE_OUTER_BOUND ( 'NONE', #83, .T. ) ;
#32 = AXIS2_PLACEMENT_3D ( 'NONE', #113, #298, #2 ) ;
#33 = DIRECTION ( 'NONE',  ( 0.7071067811865475727, -0.7071067811865475727, 0.000000000000000000 ) ) ;
#34 = ORIENTED_EDGE ( 'NONE', *, *, #64, .T. ) ;
#35 = COORDINATED_UNIVERSAL_TIME_OFFSET ( 8, 0, .AHEAD. ) ;
#36 = EDGE_LOOP ( 'NONE', ( #117, #7, #204, #184 ) ) ;
#37 = APPROVAL_DATE_TIME ( #8, #258 ) ;
#38 = ORIENTED_EDGE ( 'NONE', *, *, #26, .F. ) ;
#39 = COORDINATED_UNIVERSAL_TIME_OFFSET ( 8, 0, .AHEAD. ) ;
#40 = ADVANCED_FACE ( 'NONE', ( #230 ), #86, .F. ) ;
#41 = CARTESIAN_POINT ( 'NONE',  ( 0.000000000000000000, 0.000000000000000000, 6.349999999999999645 ) ) ;
#42 = APPROVAL_ROLE ( '' ) ;
#43 = FACE_OUTER_BOUND ( 'NONE', #228, .T. ) ;
#44 = FACE_OUTER_BOUND ( 'NONE', #50, .T. ) ;
#45 = MANIFOLD_SOLID_BREP ( '¾µÏ', #268 ) ;
#46 = VECTOR ( 'NONE', #129, 1000.000000000000000 ) ;
#47 = CARTESIAN_POINT ( 'NONE',  ( 0.000000000000000000, 0.000000000000000000, -6.349999999999999645 ) ) ;
#48 = PLANE ( 'NONE',  #103 ) ;
#49 =( NAMED_UNIT ( * ) SI_UNIT ( $, .STERADIAN. ) SOLID_ANGLE_UNIT ( ) );
#50 = EDGE_LOOP ( 'NONE', ( #57, #285, #13, #299 ) ) ;
#51 = CC_DESIGN_DATE_AND_TIME_ASSIGNMENT ( #210, #142, ( #305 ) ) ;
#52 = EDGE_CURVE ( 'NONE', #80, #209, #125, .T. ) ;
#53 = VECTOR ( 'NONE', #143, 1000.000000000000000 ) ;
#54 = PRODUCT_DEFINITION_FORMATION_WITH_SPECIFIED_SOURCE ( 'ANY', '', #4, .NOT_KNOWN. ) ;
#55 = EDGE_CURVE ( 'NONE', #311, #179, #146, .T. ) ;
#56 = ORIENTED_EDGE ( 'NONE', *, *, #144, .F. ) ;
#57 = ORIENTED_EDGE ( 'NONE', *, *, #148, .F. ) ;
#58 = CARTESIAN_POINT ( 'NONE',  ( 6.349999999999998757, 6.349999999999998757, -6.349999999999999645 ) ) ;
#59 = ORIENTED_EDGE ( 'NONE', *, *, #180, .T. ) ;
#60 = APPROVAL_STATUS ( 'not_yet_approved' ) ;
#61 = ORIENTED_EDGE ( 'NONE', *, *, #279, .T. ) ;
#62 = PERSON_AND_ORGANIZATION ( #319, #14 ) ;
#63 = VERTEX_POINT ( 'NONE', #147 ) ;
#64 = EDGE_CURVE ( 'NONE', #182, #212, #20, .T. ) ;
#65 = DIRECTION ( 'NONE',  ( 1.000000000000000000, 0.000000000000000000, 0.000000000000000000 ) ) ;
#66 = MECHANICAL_CONTEXT ( 'NONE', #174, 'mechanical' ) ;
#67 = CARTESIAN_POINT ( 'NONE',  ( 6.349999999999998757, 6.349999999999998757, 6.349999999999999645 ) ) ;
#68 = APPLICATION_PROTOCOL_DEFINITION ( 'international standard', 'config_control_design', 1994, #174 ) ;
#69 = DESIGN_CONTEXT ( 'detailed design', #276, 'design' ) ;
#70 = LINE ( 'NONE', #272, #27 ) ;
#71 = DIRECTION ( 'NONE',  ( -6.829619984160658046E-17, 1.000000000000000000, -0.000000000000000000 ) ) ;
#72 = EDGE_CURVE ( 'NONE', #209, #263, #91, .T. ) ;
#73 = LOCAL_TIME ( 10, 10, 39.00000000000000000, #10 ) ;
#74 = PLANE ( 'NONE',  #274 ) ;
#75 = DIRECTION ( 'NONE',  ( -0.7071067811865475727, 0.7071067811865475727, 0.000000000000000000 ) ) ;
#76 = ORIENTED_EDGE ( 'NONE', *, *, #72, .T. ) ;
#77 = EDGE_CURVE ( 'NONE', #63, #140, #70, .T. ) ;
#78 = EDGE_LOOP ( 'NONE', ( #207, #38, #56 ) ) ;
#79 = PLANE ( 'NONE',  #32 ) ;
#80 = VERTEX_POINT ( 'NONE', #102 ) ;
#81 = DIRECTION ( 'NONE',  ( 0.000000000000000000, -0.000000000000000000, 1.000000000000000000 ) ) ;
#82 = AXIS2_PLACEMENT_3D ( 'NONE', #47, #23, #291 ) ;
#83 = EDGE_LOOP ( 'NONE', ( #303, #114, #253 ) ) ;
#84 = FACE_OUTER_BOUND ( 'NONE', #199, .T. ) ;
#85 = ADVANCED_FACE ( 'NONE', ( #43 ), #119, .F. ) ;
#86 = PLANE ( 'NONE',  #82 ) ;
#87 = CALENDAR_DATE ( 2021, 5, 1 ) ;
#88 = APPROVAL_ROLE ( '' ) ;
#89 = EDGE_CURVE ( 'NONE', #9, #80, #296, .T. ) ;
#90 = ORIENTED_EDGE ( 'NONE', *, *, #297, .T. ) ;
#91 = LINE ( 'NONE', #96, #189 ) ;
#92 = CC_DESIGN_PERSON_AND_ORGANIZATION_ASSIGNMENT ( #262, #231, ( #4 ) ) ;
#93 = ADVANCED_FACE ( 'NONE', ( #169 ), #74, .T. ) ;
#94 = CALENDAR_DATE ( 2021, 5, 1 ) ;
#95 = VECTOR ( 'NONE', #220, 1000.000000000000000 ) ;
#96 = CARTESIAN_POINT ( 'NONE',  ( 6.349999999999999645, -6.350000000000000533, 6.349999999999999645 ) ) ;
#97 = PRODUCT_RELATED_PRODUCT_CATEGORY ( 'detail', '', ( #4 ) ) ;
#98 = VECTOR ( 'NONE', #222, 1000.000000000000000 ) ;
#99 = CARTESIAN_POINT ( 'NONE',  ( 0.000000000000000000, 0.000000000000000000, 0.000000000000000000 ) ) ;
#100 = ADVANCED_FACE ( 'NONE', ( #44 ), #145, .F. ) ;
#101 = DIRECTION ( 'NONE',  ( -2.903408047666378392E-16, -1.000000000000000000, 0.000000000000000000 ) ) ;
#102 = CARTESIAN_POINT ( 'NONE',  ( -6.349999999999999645, -6.350000000000000533, 6.349999999999999645 ) ) ;
#103 = AXIS2_PLACEMENT_3D ( 'NONE', #283, #203, #81 ) ;
#104 =( NAMED_UNIT ( * ) PLANE_ANGLE_UNIT ( ) SI_UNIT ( $, .RADIAN. ) );
#105 = ORIENTED_EDGE ( 'NONE', *, *, #240, .F. ) ;
#106 = SHAPE_DEFINITION_REPRESENTATION ( #192, #130 ) ;
#107 = AXIS2_PLACEMENT_3D ( 'NONE', #5, #33, #157 ) ;
#108 = DIRECTION ( 'NONE',  ( -6.829619984160658046E-17, 1.000000000000000000, -0.000000000000000000 ) ) ;
#109 = DIRECTION ( 'NONE',  ( -1.000000000000000000, 2.903408047666378392E-16, 0.000000000000000000 ) ) ;
#110 = ORIENTED_EDGE ( 'NONE', *, *, #256, .T. ) ;
#111 = ADVANCED_FACE ( 'NONE', ( #266 ), #171, .T. ) ;
#112 = VECTOR ( 'NONE', #320, 1000.000000000000000 ) ;
#113 = CARTESIAN_POINT ( 'NONE',  ( 0.000000000000000000, 0.000000000000000000, -6.349999999999999645 ) ) ;
#114 = ORIENTED_EDGE ( 'NONE', *, *, #131, .F. ) ;
#115 = APPLICATION_PROTOCOL_DEFINITION ( 'international standard', 'config_control_design', 1994, #276 ) ;
#116 = VECTOR ( 'NONE', #229, 999.9999999999998863 ) ;
#117 = ORIENTED_EDGE ( 'NONE', *, *, #180, .F. ) ;
#118 = PERSON_AND_ORGANIZATION ( #319, #14 ) ;
#119 = PLANE ( 'NONE',  #302 ) ;
#120 = DIRECTION ( 'NONE',  ( 0.000000000000000000, 0.000000000000000000, 1.000000000000000000 ) ) ;
#121 = PERSON_AND_ORGANIZATION_ROLE ( 'classification_officer' ) ;
#122 = CARTESIAN_POINT ( 'NONE',  ( -6.349999999999998757, -6.349999999999997868, -6.349999999999999645 ) ) ;
#123 = LOCAL_TIME ( 10, 10, 39.00000000000000000, #39 ) ;
#124 = LINE ( 'NONE', #122, #95 ) ;
#125 = LINE ( 'NONE', #316, #112 ) ;
#126 = CARTESIAN_POINT ( 'NONE',  ( 6.349999999999996980, 6.349999999999996980, -6.349999999999999645 ) ) ;
#127 = FACE_OUTER_BOUND ( 'NONE', #280, .T. ) ;
#128 = CARTESIAN_POINT ( 'NONE',  ( 6.349999999999999645, -6.350000000000000533, 6.349999999999999645 ) ) ;
#129 = DIRECTION ( 'NONE',  ( 1.000000000000000000, -2.903408047666378392E-16, 0.000000000000000000 ) ) ;
#130 = ADVANCED_BREP_SHAPE_REPRESENTATION ( 'BK7-BPBSC-12.7-450-650', ( #260, #45, #155 ), #270 ) ;
#131 = EDGE_CURVE ( 'NONE', #263, #182, #193, .T. ) ;
#132 = ORIENTED_EDGE ( 'NONE', *, *, #321, .T. ) ;
#133 = LINE ( 'NONE', #301, #98 ) ;
#134 = DIRECTION ( 'NONE',  ( 1.000000000000000000, -2.903408047666378392E-16, 0.000000000000000000 ) ) ;
#135 = EDGE_LOOP ( 'NONE', ( #59, #16, #156 ) ) ;
#136 = DATE_TIME_ROLE ( 'classification_date' ) ;
#137 = ORIENTED_EDGE ( 'NONE', *, *, #321, .F. ) ;
#138 = CALENDAR_DATE ( 2021, 5, 1 ) ;
#139 = LOCAL_TIME ( 10, 10, 39.00000000000000000, #185 ) ;
#140 = VERTEX_POINT ( 'NONE', #141 ) ;
#141 = CARTESIAN_POINT ( 'NONE',  ( 6.349999999999996980, 6.349999999999996980, -6.349999999999999645 ) ) ;
#142 = DATE_TIME_ROLE ( 'creation_date' ) ;
#143 = DIRECTION ( 'NONE',  ( -2.220446049250312588E-16, 1.000000000000000000, 0.000000000000000000 ) ) ;
#144 = EDGE_CURVE ( 'NONE', #311, #186, #239, .T. ) ;
#145 = PLANE ( 'NONE',  #30 ) ;
#146 = LINE ( 'NONE', #196, #168 ) ;
#147 = CARTESIAN_POINT ( 'NONE',  ( 6.349999999999996980, 6.349999999999996980, 6.349999999999999645 ) ) ;
#148 = EDGE_CURVE ( 'NONE', #179, #215, #124, .T. ) ;
#149 = LINE ( 'NONE', #126, #46 ) ;
#150 = PLANE ( 'NONE',  #206 ) ;
#151 = UNCERTAINTY_MEASURE_WITH_UNIT (LENGTH_MEASURE( 1.000000000000000082E-05 ), #273, 'distance_accuracy_value', 'NONE');
#152 = CARTESIAN_POINT ( 'NONE',  ( -6.349999999999998757, -6.349999999999997868, -6.349999999999999645 ) ) ;
#153 = DIRECTION ( 'NONE',  ( -0.7071067811865475727, -0.7071067811865475727, 0.000000000000000000 ) ) ;
#154 = CC_DESIGN_PERSON_AND_ORGANIZATION_ASSIGNMENT ( #62, #261, ( #54 ) ) ;
#155 = AXIS2_PLACEMENT_3D ( 'NONE', #99, #195, #216 ) ;
#156 = ORIENTED_EDGE ( 'NONE', *, *, #246, .T. ) ;
#157 = DIRECTION ( 'NONE',  ( 0.7071067811865474617, 0.7071067811865474617, 0.000000000000000000 ) ) ;
#158 = ORIENTED_EDGE ( 'NONE', *, *, #131, .T. ) ;
#159 = DATE_AND_TIME ( #87, #73 ) ;
#160 = DATE_AND_TIME ( #218, #295 ) ;
#161 = ORIENTED_EDGE ( 'NONE', *, *, #77, .T. ) ;
#162 = DIRECTION ( 'NONE',  ( 1.000000000000000000, -2.220446049250312588E-16, 0.000000000000000000 ) ) ;
#163 = APPROVAL_ROLE ( '' ) ;
#164 = CARTESIAN_POINT ( 'NONE',  ( 6.349999999999998757, 6.349999999999998757, -6.349999999999999645 ) ) ;
#165 = DATE_AND_TIME ( #138, #139 ) ;
#166 = CC_DESIGN_PERSON_AND_ORGANIZATION_ASSIGNMENT ( #241, #237, ( #54 ) ) ;
#167 = DIRECTION ( 'NONE',  ( 0.000000000000000000, 0.000000000000000000, -1.000000000000000000 ) ) ;
#168 = VECTOR ( 'NONE', #22, 1000.000000000000000 ) ;
#169 = FACE_OUTER_BOUND ( 'NONE', #235, .T. ) ;
#170 = APPROVAL_PERSON_ORGANIZATION ( #187, #258, #163 ) ;
#171 = PLANE ( 'NONE',  #11 ) ;
#172 = ADVANCED_FACE ( 'NONE', ( #242 ), #221, .F. ) ;
#173 = CARTESIAN_POINT ( 'NONE',  ( 6.349999999999998757, 6.349999999999998757, 6.349999999999999645 ) ) ;
#174 = APPLICATION_CONTEXT ( 'configuration controlled 3d designs of mechanical parts and assemblies' ) ;
#175 = LINE ( 'NONE', #183, #314 ) ;
#176 = ORIENTED_EDGE ( 'NONE', *, *, #89, .T. ) ;
#177 = DIRECTION ( 'NONE',  ( 0.7071067811865475727, 0.7071067811865475727, 0.000000000000000000 ) ) ;
#178 = CARTESIAN_POINT ( 'NONE',  ( -6.349999999999998757, -6.349999999999997868, 6.349999999999999645 ) ) ;
#179 = VERTEX_POINT ( 'NONE', #152 ) ;
#180 = EDGE_CURVE ( 'NONE', #140, #179, #175, .T. ) ;
#181 = LOCAL_TIME ( 10, 10, 39.00000000000000000, #17 ) ;
#182 = VERTEX_POINT ( 'NONE', #58 ) ;
#183 = CARTESIAN_POINT ( 'NONE',  ( 6.349999999999996980, 6.349999999999996980, -6.349999999999999645 ) ) ;
#184 = ORIENTED_EDGE ( 'NONE', *, *, #55, .T. ) ;
#185 = COORDINATED_UNIVERSAL_TIME_OFFSET ( 8, 0, .AHEAD. ) ;
#186 = VERTEX_POINT ( 'NONE', #24 ) ;
#187 = PERSON_AND_ORGANIZATION ( #319, #14 ) ;
#188 = DIRECTION ( 'NONE',  ( -0.000000000000000000, 0.000000000000000000, 1.000000000000000000 ) ) ;
#189 = VECTOR ( 'NONE', #197, 1000.000000000000000 ) ;
#190 = APPROVAL_STATUS ( 'not_yet_approved' ) ;
#191 = CC_DESIGN_APPROVAL ( #194, ( #54 ) ) ;
#192 = PRODUCT_DEFINITION_SHAPE ( 'NONE', 'NONE',  #305 ) ;
#193 = LINE ( 'NONE', #164, #294 ) ;
#194 = APPROVAL ( #60, 'UNSPECIFIED' ) ;
#195 = DIRECTION ( 'NONE',  ( 0.000000000000000000, 0.000000000000000000, 1.000000000000000000 ) ) ;
#196 = CARTESIAN_POINT ( 'NONE',  ( -6.349999999999998757, -6.349999999999997868, 6.349999999999999645 ) ) ;
#197 = DIRECTION ( 'NONE',  ( -0.000000000000000000, -0.000000000000000000, -1.000000000000000000 ) ) ;
#198 = DIRECTION ( 'NONE',  ( 1.000000000000000000, 0.000000000000000000, 0.000000000000000000 ) ) ;
#199 = EDGE_LOOP ( 'NONE', ( #34, #137, #232, #110 ) ) ;
#200 = CARTESIAN_POINT ( 'NONE',  ( 6.349999999999996980, 6.349999999999996980, 6.349999999999999645 ) ) ;
#201 = ORIENTED_EDGE ( 'NONE', *, *, #256, .F. ) ;
#202 = SECURITY_CLASSIFICATION ( '', '', #19 ) ;
#203 = DIRECTION ( 'NONE',  ( 0.000000000000000000, 1.000000000000000000, 0.000000000000000000 ) ) ;
#204 = ORIENTED_EDGE ( 'NONE', *, *, #282, .T. ) ;
#205 = ADVANCED_FACE ( 'NONE', ( #31 ), #79, .F. ) ;
#206 = AXIS2_PLACEMENT_3D ( 'NONE', #226, #75, #177 ) ;
#207 = ORIENTED_EDGE ( 'NONE', *, *, #282, .F. ) ;
#208 = LINE ( 'NONE', #224, #315 ) ;
#209 = VERTEX_POINT ( 'NONE', #128 ) ;
#210 = DATE_AND_TIME ( #94, #181 ) ;
#211 = VECTOR ( 'NONE', #287, 1000.000000000000114 ) ;
#212 = VERTEX_POINT ( 'NONE', #1 ) ;
#213 = CC_DESIGN_PERSON_AND_ORGANIZATION_ASSIGNMENT ( #312, #265, ( #305 ) ) ;
#214 = APPROVAL_STATUS ( 'not_yet_approved' ) ;
#215 = VERTEX_POINT ( 'NONE', #300 ) ;
#216 = DIRECTION ( 'NONE',  ( 1.000000000000000000, 0.000000000000000000, 0.000000000000000000 ) ) ;
#217 = CARTESIAN_POINT ( 'NONE',  ( -6.349999999999998757, -6.349999999999997868, 6.349999999999999645 ) ) ;
#218 = CALENDAR_DATE ( 2021, 5, 1 ) ;
#219 = CC_DESIGN_SECURITY_CLASSIFICATION ( #202, ( #54 ) ) ;
#220 = DIRECTION ( 'NONE',  ( -2.220446049250312588E-16, 1.000000000000000000, 0.000000000000000000 ) ) ;
#221 = PLANE ( 'NONE',  #286 ) ;
#222 = DIRECTION ( 'NONE',  ( 0.000000000000000000, 0.000000000000000000, -1.000000000000000000 ) ) ;
#223 = APPROVAL_PERSON_ORGANIZATION ( #308, #194, #42 ) ;
#224 = CARTESIAN_POINT ( 'NONE',  ( -6.349999999999999645, -6.350000000000000533, 6.349999999999999645 ) ) ;
#225 = LINE ( 'NONE', #247, #252 ) ;
#226 = CARTESIAN_POINT ( 'NONE',  ( 6.349999999999996980, 6.349999999999996980, 6.349999999999999645 ) ) ;
#227 = VECTOR ( 'NONE', #108, 1000.000000000000000 ) ;
#228 = EDGE_LOOP ( 'NONE', ( #158, #201, #281, #76 ) ) ;
#229 = DIRECTION ( 'NONE',  ( -0.7071067811865475727, -0.7071067811865475727, 0.000000000000000000 ) ) ;
#230 = FACE_OUTER_BOUND ( 'NONE', #135, .T. ) ;
#231 = PERSON_AND_ORGANIZATION_ROLE ( 'design_owner' ) ;
#232 = ORIENTED_EDGE ( 'NONE', *, *, #89, .F. ) ;
#233 = APPROVAL ( #214, 'UNSPECIFIED' ) ;
#234 = PERSON_AND_ORGANIZATION ( #319, #14 ) ;
#235 = EDGE_LOOP ( 'NONE', ( #176, #248, #61 ) ) ;
#236 = APPROVAL_PERSON_ORGANIZATION ( #234, #233, #88 ) ;
#237 = PERSON_AND_ORGANIZATION_ROLE ( 'creator' ) ;
#238 = CARTESIAN_POINT ( 'NONE',  ( 6.349999999999998757, 6.349999999999998757, 6.349999999999999645 ) ) ;
#239 = LINE ( 'NONE', #217, #53 ) ;
#240 = EDGE_CURVE ( 'NONE', #186, #215, #133, .T. ) ;
#241 = PERSON_AND_ORGANIZATION ( #319, #14 ) ;
#242 = FACE_OUTER_BOUND ( 'NONE', #307, .T. ) ;
#243 = CARTESIAN_POINT ( 'NONE',  ( -6.349999999999998757, -6.349999999999997868, 6.349999999999999645 ) ) ;
#244 = CARTESIAN_POINT ( 'NONE',  ( 6.349999999999998757, 6.349999999999998757, -6.349999999999999645 ) ) ;
#245 = VECTOR ( 'NONE', #293, 1000.000000000000114 ) ;
#246 = EDGE_CURVE ( 'NONE', #215, #140, #149, .T. ) ;
#247 = CARTESIAN_POINT ( 'NONE',  ( 6.349999999999998757, 6.349999999999998757, 6.349999999999999645 ) ) ;
#248 = ORIENTED_EDGE ( 'NONE', *, *, #52, .T. ) ;
#249 = ADVANCED_FACE ( 'NONE', ( #275 ), #150, .F. ) ;
#250 = ORIENTED_EDGE ( 'NONE', *, *, #26, .T. ) ;
#251 = LINE ( 'NONE', #200, #116 ) ;
#252 = VECTOR ( 'NONE', #25, 1000.000000000000000 ) ;
#253 = ORIENTED_EDGE ( 'NONE', *, *, #297, .F. ) ;
#254 = CLOSED_SHELL ( 'NONE', ( #12, #290, #85, #93, #205 ) ) ;
#255 = CARTESIAN_POINT ( 'NONE',  ( 6.349999999999996980, 6.349999999999996980, 6.349999999999999645 ) ) ;
#256 = EDGE_CURVE ( 'NONE', #9, #182, #225, .T. ) ;
#257 = CC_DESIGN_APPROVAL ( #233, ( #202 ) ) ;
#258 = APPROVAL ( #190, 'UNSPECIFIED' ) ;
#259 = ORIENTED_EDGE ( 'NONE', *, *, #72, .F. ) ;
#260 = MANIFOLD_SOLID_BREP ( 'Í¹Ì¨-À', #254 ) ;
#261 = PERSON_AND_ORGANIZATION_ROLE ( 'design_supplier' ) ;
#262 = PERSON_AND_ORGANIZATION ( #319, #14 ) ;
#263 = VERTEX_POINT ( 'NONE', #277 ) ;
#264 = DIRECTION ( 'NONE',  ( 0.000000000000000000, 0.000000000000000000, 1.000000000000000000 ) ) ;
#265 = PERSON_AND_ORGANIZATION_ROLE ( 'creator' ) ;
#266 = FACE_OUTER_BOUND ( 'NONE', #78, .T. ) ;
#267 = CARTESIAN_POINT ( 'NONE',  ( 6.349999999999998757, 6.349999999999998757, 6.349999999999999645 ) ) ;
#268 = CLOSED_SHELL ( 'NONE', ( #249, #100, #172, #111, #40 ) ) ;
#269 = APPROVAL_DATE_TIME ( #165, #233 ) ;
#270 =( GEOMETRIC_REPRESENTATION_CONTEXT ( 3 ) GLOBAL_UNCERTAINTY_ASSIGNED_CONTEXT ( ( #151 ) ) GLOBAL_UNIT_ASSIGNED_CONTEXT ( ( #273, #104, #49 ) ) REPRESENTATION_CONTEXT ( 'NONE', 'WORKASPACE' ) );
#271 = DIRECTION ( 'NONE',  ( 6.829619984160658046E-17, -1.000000000000000000, 0.000000000000000000 ) ) ;
#272 = CARTESIAN_POINT ( 'NONE',  ( 6.349999999999996980, 6.349999999999996980, 6.349999999999999645 ) ) ;
#273 =( LENGTH_UNIT ( ) NAMED_UNIT ( * ) SI_UNIT ( .MILLI., .METRE. ) );
#274 = AXIS2_PLACEMENT_3D ( 'NONE', #18, #188, #65 ) ;
#275 = FACE_OUTER_BOUND ( 'NONE', #36, .T. ) ;
#276 = APPLICATION_CONTEXT ( 'configuration controlled 3d designs of mechanical parts and assemblies' ) ;
#277 = CARTESIAN_POINT ( 'NONE',  ( 6.349999999999999645, -6.350000000000000533, -6.349999999999999645 ) ) ;
#278 = DIRECTION ( 'NONE',  ( -0.000000000000000000, -0.000000000000000000, -1.000000000000000000 ) ) ;
#279 = EDGE_CURVE ( 'NONE', #209, #9, #3, .T. ) ;
#280 = EDGE_LOOP ( 'NONE', ( #90, #259, #310, #132 ) ) ;
#281 = ORIENTED_EDGE ( 'NONE', *, *, #279, .F. ) ;
#282 = EDGE_CURVE ( 'NONE', #63, #311, #251, .T. ) ;
#283 = CARTESIAN_POINT ( 'NONE',  ( -6.349999999999999645, -6.350000000000000533, 6.349999999999999645 ) ) ;
#284 = ORIENTED_EDGE ( 'NONE', *, *, #246, .F. ) ;
#285 = ORIENTED_EDGE ( 'NONE', *, *, #55, .F. ) ;
#286 = AXIS2_PLACEMENT_3D ( 'NONE', #318, #101, #109 ) ;
#287 = DIRECTION ( 'NONE',  ( -0.7071067811865474617, -0.7071067811865474617, 0.000000000000000000 ) ) ;
#288 = APPROVAL_DATE_TIME ( #159, #194 ) ;
#289 = DIRECTION ( 'NONE',  ( -2.220446049250312588E-16, 1.000000000000000000, 0.000000000000000000 ) ) ;
#290 = ADVANCED_FACE ( 'NONE', ( #127 ), #48, .F. ) ;
#291 = DIRECTION ( 'NONE',  ( -2.220446049250312588E-16, 1.000000000000000000, 0.000000000000000000 ) ) ;
#292 = CC_DESIGN_DATE_AND_TIME_ASSIGNMENT ( #160, #136, ( #202 ) ) ;
#293 = DIRECTION ( 'NONE',  ( -0.7071067811865474617, -0.7071067811865474617, 0.000000000000000000 ) ) ;
#294 = VECTOR ( 'NONE', #71, 1000.000000000000000 ) ;
#295 = LOCAL_TIME ( 10, 10, 39.00000000000000000, #35 ) ;
#296 = LINE ( 'NONE', #267, #211 ) ;
#297 = EDGE_CURVE ( 'NONE', #212, #263, #6, .T. ) ;
#298 = DIRECTION ( 'NONE',  ( -0.000000000000000000, 0.000000000000000000, 1.000000000000000000 ) ) ;
#299 = ORIENTED_EDGE ( 'NONE', *, *, #240, .T. ) ;
#300 = CARTESIAN_POINT ( 'NONE',  ( -6.350000000000002309, 6.350000000000001421, -6.349999999999999645 ) ) ;
#301 = CARTESIAN_POINT ( 'NONE',  ( -6.350000000000002309, 6.350000000000001421, 6.349999999999999645 ) ) ;
#302 = AXIS2_PLACEMENT_3D ( 'NONE', #67, #313, #271 ) ;
#303 = ORIENTED_EDGE ( 'NONE', *, *, #64, .F. ) ;
#304 = LINE ( 'NONE', #255, #309 ) ;
#305 = PRODUCT_DEFINITION ( 'UNKNOWN', '', #54, #69 ) ;
#306 = CARTESIAN_POINT ( 'NONE',  ( -6.349999999999999645, -6.350000000000000533, -6.349999999999999645 ) ) ;
#307 = EDGE_LOOP ( 'NONE', ( #284, #105, #250, #161 ) ) ;
#308 = PERSON_AND_ORGANIZATION ( #319, #14 ) ;
#309 = VECTOR ( 'NONE', #134, 1000.000000000000000 ) ;
#310 = ORIENTED_EDGE ( 'NONE', *, *, #52, .F. ) ;
#311 = VERTEX_POINT ( 'NONE', #178 ) ;
#312 = PERSON_AND_ORGANIZATION ( #319, #14 ) ;
#313 = DIRECTION ( 'NONE',  ( -1.000000000000000000, -6.829619984160658046E-17, 0.000000000000000000 ) ) ;
#314 = VECTOR ( 'NONE', #153, 999.9999999999998863 ) ;
#315 = VECTOR ( 'NONE', #278, 1000.000000000000000 ) ;
#316 = CARTESIAN_POINT ( 'NONE',  ( -6.349999999999999645, -6.350000000000000533, 6.349999999999999645 ) ) ;
#317 = CC_DESIGN_PERSON_AND_ORGANIZATION_ASSIGNMENT ( #118, #121, ( #202 ) ) ;
#318 = CARTESIAN_POINT ( 'NONE',  ( 6.349999999999996980, 6.349999999999996980, 6.349999999999999645 ) ) ;
#319 = PERSON ( 'UNSPECIFIED', 'UNSPECIFIED', 'UNSPECIFIED', ('UNSPECIFIED'), ('UNSPECIFIED'), ('UNSPECIFIED') ) ;
#320 = DIRECTION ( 'NONE',  ( 1.000000000000000000, 0.000000000000000000, 0.000000000000000000 ) ) ;
#321 = EDGE_CURVE ( 'NONE', #80, #212, #208, .T. ) ;
ENDSEC;
END-ISO-10303-21;
